napi klip: Catherine Wheel – Delicious


INTRO/FIGURE I:
   A               D*          D       (rpt 6x)
|-------------------------------------------|
|-------------------------------------------|
|.-----------------------------------------.|
|.-----------------------------------------.|
|--7-7-7-7-7-7-7-7-11-11-11-11-12-12-12-12--|
|--5-5-5-5-5-5-5-5-10-10-10-10-10-10-10-10--|

SOLO I:                                (rpt 2x)
|-------------------------------------------|
|--8-------7-----5-------------5------------|
|.-----------------6---------6-------------.|
|.-----------------------------------------.|
|-------------------------------------------|
|-------------------------------------------|

VERSE:
  A                  D*   D
I must have been crazy
I think I was being brave
I think I was Bruce Lee
I might have been Michael Caine
So give me something to cover my eyes
Weakness and distress what am I?
E    c#  A   f#
    "A B C D You're in the belly of me"

CHORUS:
E     g#                  B      A
  You eat you sleep you breathe  Something delicious
E     c#                  A      f#
  You spill you grip you squeeze Something delicious
  You peel you strip you bleed   Something delicious
E     c#    D   C
  Delicious

VERSE:
  A                 D*   D
I must be confused
Oh it's so typical
Some fleshy temptation
And the sweetness only improves
So give me something to cover my eyes
Weakness and distress what am I?
E    c#            A
    "Tree to fruit apple to seed
f#               E
You are the A in Adam and Eve"

CHORUS:
E     g#                  B      A
  You eat you sleep you breathe  Something delicious
E     c#                  A      f#
  You spill you grip you squeeze Something delicious
  You peel you strip you bleed   Something delicious
E     c#                  A      B
  Delicious
c#                        A      B
Something               delicious

f# (inkább F#)

A                    B
       Give all your hope to me
       Make all your love to me

rpt CHORUS

A                           B
       So save some of your hope for me

D     C (let ring)

Forrás

Dalszöveg