napi klip: Dinosaur Jr – Feel the Pain


 C                  F
--------------------------------------------
-----8---8---8---8--------------------------
---9---9---9---9----10-10-10-10-10-10-10-10-
--------------------10-10-10-10-10-10-10-10-
--------------------8--8--8--8--8--8--8--8--
-8------------------------------------------

[C]I feel the pain of e[F]veryone
[C]And then I feel no[F]thing
[C]I feel the pain of e[F]veryone
[C]And then I feel no[F]thing

Riff, double time
-3-3-3-3-3-3--8-8--8--8-8--8----8- -3-3-3-3-3-3--8-8--8--8-12---12---
-3-5-5-3-5-3--8-10-10-8-10-8-8--8- -3-5-5-3-5-3--8-10-10-8-15^^-15^^-
-----------------------------10--- ----------------------------------
---------------------------------- ----------------------------------
---------------------------------- ----------------------------------
---------------------------------- ----------------------------------

I feel the pain of everyone
And then I feel nothing
I feel the pain of everyone
And then I feel nothing

Riff

[Dm]Is it up to [G]me
[Em]You won't [C]wait to see  [A]
[G]Screwed us yet [Em]again
[G]About as close as you [C]get  [A]

I feel the pain of everyone
And then I feel nothing
I feel the pain of everyone
And then I feel nothing

Is it up to me
You won't wait to see
Screwed us yet again
Got as close as we can
Hey now take it back
Get off me a sack (???)
Trading all you see
Just trying to be free

Dalszöveg

Forrás