napi klip: Suzanne Vega – Rosemary

Do you remember how you walked with me
down the street into the square?
How the women selling rosemary
pressed the branches to your chest,
promised luck and all the rest,
and put their fingers in your hair?

I had met you just the day before,
like an accident of fate,
in the window there behind your door.
How I wanted to break in
to that room beneath your skin,
but all that would have to wait.

In the Carmen of the Martyrs,
with the statues in the courtyard
whose heads and hands were taken,
in the burden of the sun;
I had come to meet you
with a question in my footsteps.
I was going up the hillside
and the journey just begun.

My sister says she never dreams at night
there are days when I know why;
those possibilities within her sight,
with no way of coming true.
Some things just don't get through
into this world , although they try.

In the Carmen of the Martyrs
with the statues in the courtyard
whose heads and hands were taken,
in the burden of the sun;
I had come to meet you
with a question in my footsteps.
I was going up the hillside
and the journey just begun.

All I know of you
is in my memory
All I ask is you
Remember me

Kotta: 
capo on 2nd fret

INTRO
Em (see verse for picking pattern)

VERSE

  Em               Em               C                C
E ----------------|----------------|----------------|----------------|
B ----------------|----------------|------1---------|----------------|
G ----------------|----------------|----------0-----|----------------|
D ----2-------2---|----2-------2---|----2-------2---|----0-------2/--|
A --------0h2-----|--------0h2-----|3---------------|3-------3-------|
E 0---------------|0---------------|----------------|----------------|
  ^ . ^ . ^ . ^ .  ^ . ^ . ^ . ^ .  ^ . ^ . ^ . ^ .  ^ . ^ . ^ . ^ .  

  D                D                C                C
E ----------------|----------------|----------------|----------------|
B ------3---------|------3---------|------1---------|----------------|
G ----------0-----|----------0-----|----------0-----|----------------|
D ----4-------4---|----4-------4--|----2-------2---|----0-------2---|
A 5---------------|5---------------|3---------------|3-------3-------|
E ----------------|----------------|----------------|----------------|
  ^ . ^ . ^ . ^ .  ^ . ^ . ^ . ^ .  ^ . ^ . ^ . ^ .  ^ . ^ . ^ . ^ .  

repeat the D C bit at the end of the verse

CHORUS

  Em               Em               C                
E ----------------|----------------|----------------|----------------|
B ------0---------|------0---------|------1---------|------1---------|
G ----------0-----|----------0-----|----------0-----|----------0-----|
D ----2-------2---|----2-------2---|----2-------2---|----2-------2---|
A ----------------|----------------|3---------------|3---------------|
E 0---------------|0---------------|----------------|----------------|
  ^ . ^ . ^ . ^ .  ^ . ^ . ^ . ^ .  ^ . ^ . ^ . ^ .  ^ . ^ . ^ . ^ .  

  F/A              F/A              G                G       Gadd7
E ----------------|----------------|----------------|----------------|
B ------1---------|------1---------|------3---------|----------------|
G ----------2-----|----------2-----|----------0-----|----------------|
D ----3-------3---|----3-------3---|----0-------0---|----0-------0---|
A 0---------------|0---------------|----------------|----------------|
E ----------------|----------------|3---------------|3-------2-------|
  ^ . ^ . ^ . ^ .  ^ . ^ . ^ . ^ .  ^ . ^ . ^ . ^ .  ^ . ^ . ^ . ^ .  

at end of chorus, replace last bar with a simple G chord

Kotta forrása