napi klip: Kispál és a Borz – Halszív

Bevezető és kíséret:
  e |---------------|---------------|---------------|---------------|
  H |---------------|---------------|---------------|---------------|
  G |---2-----------|---2-----------|---2-----------|020------------|
  D |2-------4542--4|2-------4542--4|2-------4542--4|---4--5-4542--4|
  A |---------------|---------------|---------------|---------------|
  E |---------------|---------------|---------------|---------------|
Basszus:
  e |---------------|
  H |---------------|
  G |4--4----4------|
  D |5--4----2--4---|
  A |-----------2---|
  E |---------------|

 Em  -   H Em-H Em   -   H   Em-H
Sokat keres      az én szívem
 Em - H  Em-H Em - H Em-H
Hazahozza    kiönti
   Em   -  H   Em-H Em -  H Em-H
A padlón vernek     utolsót
 Em- H Em-H    Em -  H Em-H
Halaim     aranyhalaim

Em       G     C      H    Em      H  C  H
Így is van, sokat keres az én szívem
Em       G     C      H    Em      H  C  H
Így is van, sokat keres az én szívem

Kiköpik a kukoricát
Tiszta vér a szárnyuk is
Elalszanak mégis a
Rózsaszín vizükbe'

Így is van, sokat keres az én szívem...

F  Em  G  G-C
F  Em  F  H

Em-H  Em-H  Em-H  Em-H
Em-H  Em-H  Em-H  Em-H


Sokat keres az én szívem...

Így is van, sokat keres az én szívem...

Em           C   Em       H
Játszik a szív, mikor dobog
 Em      C     H      
Lassan-lassan leng a testbe
 Em        C      Em       H
Még küld vért a szárnyakhoz
      Em      C     H       
Hogy teljen benne azoknak kedve.

Így is van, sokat keres az én szívem...

Dalszöveg

Forrás