napi klip: Grandaddy – Way We Won’t

[Intro]
E  E  E  E

[Verse 1]
C#m               B
Less than an hour past control tower
E                        E
On a big box store roof
C#m                B
Cinnamon smell and holiday sales
E                        E
Why would we ever move?

[Pre-Chorus]
C#m              B
Damned if we do, Dumb if we don't
E                 E
End up again back home
C#m               B
Watch it and see, It's playing here free
E                E                  A
That is the way, That is the way we won't

[Chorus]
A  A  E  E     A   A   
            we won't
E  E                  A     A
   That is the way we won't
E      C#m   A  A  E  E
    We won't 


[Verse 2]
C#m              B
More than a year landed out here
E                  E
On a big box store roof
C#m                 B
Tropical smells and back to school sales
E                 E
Why would we ever move?

[Pre-Chorus]
C#m              B
Damned if we do, Dumb if we don't
E                 E
End up again back home
C#m               B
Watch it and see, It plays in HD
E                E                  A
That is the way, That is the way we won't


[Chorus]
A  A  E  E     A   A   
            we won't
E  E                  A     A
   That is the way we won't
E      C#m   A  A  
    We won't 
E  E                  A     A
   That is the way we won't

E E A A E E 

[Chorus]
           A     A   E  E
The way we won't
            A     A   E  E
The way we won't
                   A     A
That is the way we won't
E      C#m   A  A  E E
    We won't 

[Outro]
A A E E [repeat, fade out)
-----------------------------------------------------------------
[Intro]
 
e|---------------------------|----------------------------|
B|-------------9---12---14---|----------14---12---9-------|
G|---9------9----------------|--9---------------------11--|
D|------11-------------------|-----11---------------------|
A|---------------------------|----------------------------|
E|---------------------------|----------------------------|
 
e|---------------------------|----------------------------|
B|---------------------------|----------------------------|
G|-----11---------------11---|-----11---------------11--9-|
D|---------------------------|----------------------------|
A|---------------------------|----------------------------|
E|---------------------------|----------------------------| x2
  
[Verse]
 
   C#m               B                 E                 E
e|-4-4-4-4-4-4-4-4-|-----------------|-0-0-0-0-0-0-0-0-|----------------|
B|-5-5-5-5-5-5-5-5-|-4-4-4-4-4-4-4-4-|-0-0-0-0-0-0-0-0-|----------------|
G|-6-6-6-6-6-6-6-6-|-4-4-4-4-4-4-4-4-|-1-1-1-1-1-1-1-1-|----------------|
D|-6-6-6-6-6-6-6-6-|-4-4-4-4-4-4-4-4-|-2-2-2-2-2-2-2-2-|------ % -------|
A|-4-4-4-4-4-4-4-4-|-2-2-2-2-2-2-2-2-|-2-2-2-2-2-2-2-2-|----------------|
E|-----------------|-----------------|-0-0-0-0-0-0-0-0-|----------------|
 
[Chorus]
     A          A              E             E
e|----------------------9----|---------9------------------|
B|--------------10--12-------|-------------12---9---------|
G|---9------9----------------|--9------------------11-----|
D|------11-------------------|-----11---------------------|
A|---------------------------|----------------------------|
E|---------------------------|----------------------------|
 
     A          A              E             E
e|---------------------9------|---------------------------|
B|--------------9--12--------|---------------10--9--------|
G|---9------9----------------|--9---------9---------------|
D|------9--------------------|-----11--9------------------|
A|---------------------------|----------------------------|
E|---------------------------|----------------------------|
 
Repeat 4 times
 
[Solo]/[Outro]
e|---------------------|-----------------------|-------------------|-------|
B|---------------------|-----------------------|-------------------|-------|
G|--13-----------------|-----13--13/16--13--11-|-11----13-13L------|-------|
A|---------------------|-----------------------|-------------------|-------|
A|---------------------|-----------------------|-------------------|-------|
E|---------------------|-----------------------|-------------------|-------|

Forrás

Forrás2