napi klip: The Pixies – Gigantic

lét és idő

[Bass main riff] (on bass):
G|----------------------------------------------------|
D|----------------------------------------------------|
A|--------------5--5--7--7--2--2--2--2--3--3--5--5----|
E|--3--3--3--3----------------------------------------|

and this i know, his teeth as white as snow what a gas it was....
[guitar] rest
[bass]   main riff

hey paul, hey paul, hey paul, let's have a...
[guitar] get wacky feedback in key of G
[bass] main riff

gigantic, gigantic, gigantic, a big big love...
[guitar] G5   C5  D5   B5   C5   D5
[bass] keep chuggin that main riff

after the second verse, there is a guitar break that goes:
[guitar]
e|----------------------------------------------------|
B|----------------------------------------------------|
G|--0-------0-----1---------------------------------.-|
D|--0----0-----2--------1---------2------4---5------.-|
A|--2----------------2---------3------5---------------|
E|--3-------------------------------------------------|
[bass] rest

[guitar] G5        E5   D5    |\   four times, then back to chorus
[bass] [main riff]            |/

Dalszöveg

Forrás