napi klip: Princess Chelsea – The Cigarette Duet

CAPO I (B=C)

[Intro] (in 3/4 tempo)
((Bm C#m  )/x3 F# )/x2

A     E
G     D
E

     Bm         F#           G              D  
It's just a cigarette and it cannot be that bad
Bm              F#              G                D
Honey don't you love me and you know it makes me sad?
     Bm         F#             G              D
It's just a cigarette like you always used to do
Bm              F#            G               D
I was different then, I don't need them to be cool

[Interlude]
F# \ 4x
Bm /

[Verse 2]
     Bm         F#           G                 D
It's just a cigarette and it harms your pretty lungs
          Bm           F#              G             D
Well it's only twice a week so there's not much of a chance
     Bm          F#         G            D
It's just a cigarette it'll soon be only ten
Bm              F#              G              D
Honey can't you trust me when I want to stop I can

[Solo]

   F#      Bm       F#     Bm      F#     Bm         F#      Bm
e|-------2/7-------------9\7------------2/12-109----------------9--------|
B|---------------------------7------------------12-----------12--1210-12-|
G|-----------------------------------------------------------------------|
D|-----------------------------------------------------------------------|
A|-----------------------------------------------------------------------|
E|-----------------------------------------------------------------------|

[Verse 3]
     Bm         F#                    G       D
It's just a cigarette and it's just a Malboro Light
Bm    F#           G              D
   Maybe but is it worth it if we fight?
     Bm         F#           G              D
It's just a cigarette that I got from Jamie-Lee
      Bm          F#            G              D
She's gonna get a smack and I'm gonna give you three

[Duet Verse]
     Bm         F#           G          D
It's just a cigarette and I only did it once
Bm                F#              G             D
it's only twice a week so there's not much of a chance
Bm               F#           G                D
It's just a cigarette and I'm sorry that I did it
Bm              F#              G              D
Honey can't you trust me when I want to stop I can

[Solo Riff]

   F#      Bm       F#     Bm      F#     Bm         F#      Bm
e|-------2/7-------------9\7------------2/12-109----------------9--------|
B|---------------------------7------------------12-----------12--1210-12-|
G|-----------------------------------------------------------------------|
D|-----------------------------------------------------------------------|
A|-----------------------------------------------------------------------|
E|-----------------------------------------------------------------------|

[Solo]
   Bm   F#    G     D    Bm  F#    G     D
e|--------------------------------------------|
B|----------/12-10----------------------------|
G|-11---12--------1211---9---11-------911-----|
D|-------------------------------9--12---12---|
A|--------------------------------------------|
E|--------------------------------------------|

   Bm   F#    G     D      Bm  F#    G     D
e|---------------------10-----------------------|
B|----------/12-10------------------------------|
G|-11---12--------1211-------9-11-------911-----|
D|---------------------------------9--12---12---|
A|----------------------------------------------|
E|----------------------------------------------|

[Outro](4x)
Bm   F#       G           D
  La la    la la la la la la
Bm   F#       G           D
  la la    la la la la la la
Bm   F#       G           D
  La la    la la la la la la
Bm   F#       G           D
  La la    la la la la la la

[Keyboard Outro]
Bm   F# \ 4x
G    D  /

Forrás