napi klip: Hazel English – I’m Fine

[Intro]
D  F#m  G  D

[Verse 1]
D             F#m
I, I can't deny
        G                D
I'm paralysed from the inside
           F#m              G        D
Everyday I wake to feel the same, oh-whoa

D         F#m
And every time
           G          D
You ask me how I'm feeling
A            Bm  G                          D
I just smile and tell you that I'm fine, oh-whoa

[Interlude]
D  F#m  G  D  x2

(keyboard)
E|---------5------------------------7-5---5-7-5------------5---------|
B|-7---7-5---7--7-5-------7-------------7-------7-5----------7~------|
G|------------------7-9-9---9-7---------------------7~---7-----------|
D|------------------------------7~-----------------------------------|
A|-------------------------------------------------------------------|
D|-------------------------------------------------------------------|

[Verse 2]
D               F#m
I, I don't know why
         G             D
I'm terrified of everything
                 F#m              G        D
Just to call the doctor seems daunting, oh-whoa

D              F#m
For most of my life
         G               D
I felt a sharp uncertainty
A           Bm G                     D
Now its just become a part of me, oh-whoa

[Instrumental]
G  A   Bm  F#m  x4
D  F#m G   D

[Verse 3]
D             F#m
I, I can't deny
        G                D
I'm paralysed from the inside
            F#m               G       D
Every day I wake to feel the same, oh-whoa

D         F#m
And every time
           G          D
You ask me how I'm feeling
A            Bm  G                          D
I just smile and tell you that I'm fine, oh-whoa

[Outro]
(Hazel plays this on her guitar over the lyrics until the end)
E|----------------------------|        e|-------------------|
B|--------10-------10----10~--|        B|-------10----------|
G|----11-----11-------11------|        G|----11----11-------|
D|--------------12------------| (x15)  D|-------------12~~--|
A|-12-------------------------|        A|-12----------------|
D|----------------------------|        D|-------------------|

     G            A
It's hard to stay true
   Bm             F#m
To myself and to you
  G                A
I can't measure up to
     Bm                    F#m
This girl you thought you knew

     G            A
This aching in my heart
   Bm           F#m
Is tearing me apart
    G                 A
But darling all your love
   Bm           F#m
Is somehow not enough

G  A  Bm  F#m  x4

Forrás