napi klip: Manic Street Preachers – Autumnsong

Intro:
e|------------14--------14--12p10----------------14------14--12p10-------|
B|-------------------------------12p10---------------------------12p10---|
G|------14-----------14---------------------14--------14-----------------|
D|--12------------12-------------------12----------12--------------------|x2
A|-----------------------------------------------------------------------|
E|-----------------------------------------------------------------------|
simultaneous (second time only)
e|------5----------------------------------------------------5-------------|
B|------7----------------------------------------------------7-------------|
G|------7----------------------------------------------------7-------------|
D|---xx-7-------------------------------------------------xx-7-------------|
A|---xx-5-------------------------------------------------xx-5-------------|
E|---xx---------------------------------------------------xx---------------|

D                         F#m
Wear your eyes as dark as night
G                    D
Paint your face with what you like
Bm                        E
Wear your love like it is made of hate
        D                    A
Born to destroy, and born to create
 
Pre Chorus - Same chords as verse
 
Now baby, what’ve you done to your hair
Is it just the same time of year
When you think that you don’t really care
Oh baby, what have you done to your hair
 
A
Done to your hair (4x)
 
Chorus
 
D                     Em
So when you hear this Autumnsong
F#m                               G
Clear your heads and get ready to run
D                     Em
So when you hear this Autumnsong
F#m                                G
Remember the best times are yet to come
 
Main riff
Verse
Pre Chorus
Chorus
 
Bridge
 
A                    Bm
So wear your hair in bunches
 
B-7/--------|
G----9-7-6~-|
 
A               Bm
And your jacket loose
 
B-7/--------|
G----9-7-6~-|
 
G                     Bm
So when you hear this Autumnsong

... 

Forrás