napi klip: Tocotronic – Let There Be Rock

Verse:
G D G G
G D E E
G D E C
G D C C
 
Chorus:
D D G C
D D E E
D D C D
G D G C
 
 
Intro:
Gb5 [3-4-5-6-X-X]
 
G D G G     2x
 
G    D       G      G
 Wir haben gehalten
G                      D              E     E
 In der langweiligsten Landschaft der Welt
G          D        E      C
 Wir haben uns unterhalten und festge-
G              D          C        C
 stellt daß es uns hier gefällt
 
Die Ausbeutung des Menschen
Erreicht eine neue Qualität
Und wie man allerorten hört, wird die Gartenbau-
kunst hier noch gerne gepflegt
 
Ich höre dich sagen
Mehr leise als laut
"Das haben sich die Jugendlichen
 Selbst aufgebaut"
 
D             G     C
 Let there be Rock
D             E     E
 Let there be Rock
D             C     D
 Let there be Rock
G D G C
 
 
Und alles was wir hassen
Seit dem ersten Tag
Wird uns niemals verlassen
Weil man es eigentlich ja mag
 
Ich höre dich sagen
Mehr leise als laut
"Das haben sich die Jugendlichen
Selbst aufgebaut"
 
Let there be Rock (3x)
 
Gb5
 
Solo
  G      D        G      D          E               G      D     E
e---------------------------------------------------------------------------------|
B-----------0---------------3---3-3-3-1-0-0-0-0-0-0-1-0-1-3---3-3-3-1-0-0---0-0-0-|
G-0---0-0-2---2-2---0-0---0-------------------------------------------------------|
D---------------------------------------------------------------------------------|
A---------------------------------------------------------------------------------|
E---------------------------------------------------------------------------------|
  C       G       D      C
e---------------------------------------------------------------------------------|
B-0-1-0-0---0-0---0---------------------------------------------------------------|
G---------------2---2-2-0-0---0-0-0-0---------------------------------------------|
D---------------------------------------------------------------------------------|
A---------------------------------------------------------------------------------|
E---------------------------------------------------------------------------------|
 
 
Let there be Rock (3x)
 
Let there be Rock (4x)
 
Herrgott noch mal
Nur noch eine Stunde
Nur noch einen Tag
 
Let there be Rock
 
Verflixt noch mal
 
Let there be Rock (2x)

Forrás